0
SECTION
2
HEADER
9
$INSUNITS
70
4
9
$ACADVER
1
AC1014
9
$HANDSEED
5
FFFF
0
ENDSEC
0
SECTION
2
TABLES
0
TABLE
2
VPORT
5
8
100
AcDbSymbolTable
0
ENDTAB
0
TABLE
2
LTYPE
5
5
100
AcDbSymbolTable
0
LTYPE
5
14
100
AcDbSymbolTableRecord
100
AcDbLinetypeTableRecord
2
BYBLOCK
70
0
0
LTYPE
5
15
100
AcDbSymbolTableRecord
100
AcDbLinetypeTableRecord
2
BYLAYER
70
0
0
ENDTAB
0
TABLE
2
LAYER
5
2
100
AcDbSymbolTable
70
2
0
LAYER
5
50
100
AcDbSymbolTableRecord
100
AcDbLayerTableRecord
2
0
70
0
6
CONTINUOUS
0
ENDTAB
0
TABLE
2
STYLE
5
3
100
AcDbSymbolTable
70
1
0
STYLE
5
11
100
AcDbSymbolTableRecord
100
AcDbTextStyleTableRecord
2
STANDARD
70
0
0
ENDTAB
0
TABLE
2
VIEW
5
6
100
AcDbSymbolTable
70
0
0
ENDTAB
0
TABLE
2
UCS
5
7
100
AcDbSymbolTable
70
0
0
ENDTAB
0
TABLE
2
APPID
5
9
100
AcDbSymbolTable
70
2
0
APPID
5
12
100
AcDbSymbolTableRecord
100
AcDbRegAppTableRecord
2
ACAD
70
0
0
ENDTAB
0
TABLE
2
DIMSTYLE
5
A
100
AcDbSymbolTable
70
1
0
ENDTAB
0
TABLE
2
BLOCK_RECORD
5
1
100
AcDbSymbolTable
70
1
0
BLOCK_RECORD
5
1F
100
AcDbSymbolTableRecord
100
AcDbBlockTableRecord
2
*MODEL_SPACE
0
BLOCK_RECORD
5
1B
100
AcDbSymbolTableRecord
100
AcDbBlockTableRecord
2
*PAPER_SPACE
0
ENDTAB
0
ENDSEC
0
SECTION
2
BLOCKS
0
BLOCK
5
20
100
AcDbEntity
100
AcDbBlockBegin
2
*MODEL_SPACE
0
ENDBLK
5
21
100
AcDbEntity
100
AcDbBlockEnd
0
BLOCK
5
1C
100
AcDbEntity
100
AcDbBlockBegin
2
*PAPER_SPACE
0
ENDBLK
5
1D
100
AcDbEntity
100
AcDbBlockEnd
0
ENDSEC
0
SECTION
2
ENTITIES
0
CIRCLE
5
100
100
AcDbEntity
8
0
100
AcDbCircle
10
-214.25000000000006
20
64.5
30
0
40
1.7000000000000002
0
CIRCLE
5
101
100
AcDbEntity
8
0
100
AcDbCircle
10
-138.25000000000006
20
27
30
0
40
1.7000000000000002
0
CIRCLE
5
102
100
AcDbEntity
8
0
100
AcDbCircle
10
-138.25000000000006
20
64.5
30
0
40
1.7000000000000002
0
CIRCLE
5
103
100
AcDbEntity
8
0
100
AcDbCircle
10
-214.25000000000006
20
27
30
0
40
1.7000000000000002
0
CIRCLE
5
104
100
AcDbEntity
8
0
100
AcDbCircle
10
-227.00000000000006
20
3.4999999999999871
30
0
40
1.6999999999999993
0
LWPOLYLINE
5
105
100
AcDbEntity
8
0
100
AcDbPolyline
90
4
70
1
43
0.0
10
-140.80000000000004
20
28.900000000000006
10
-140.80000000000004
20
42.900000000000006
10
-154.80000000000004
20
42.900000000000006
10
-154.80000000000004
20
28.900000000000006
0
LWPOLYLINE
5
106
100
AcDbEntity
8
0
100
AcDbPolyline
90
4
70
1
43
0.0
10
-140.80000000000004
20
67.000000000000014
10
-140.80000000000004
20
81.000000000000014
10
-154.80000000000004
20
81.000000000000014
10
-154.80000000000004
20
67.000000000000014
0
LWPOLYLINE
5
107
100
AcDbEntity
8
0
100
AcDbPolyline
90
4
70
1
43
0.0
10
-140.80000000000004
20
47.95000000000001
10
-140.80000000000004
20
61.95000000000001
10
-154.80000000000004
20
61.95000000000001
10
-154.80000000000004
20
47.95000000000001
0
CIRCLE
5
108
100
AcDbEntity
8
0
100
AcDbCircle
10
-125.75000000000001
20
3.4999999999999871
30
0
40
1.7000000000000004
0
LWPOLYLINE
5
109
100
AcDbEntity
8
0
100
AcDbPolyline
90
4
70
1
43
0.0
10
-217.00000000000006
20
28.900000000000006
10
-217.00000000000006
20
42.900000000000006
10
-231.00000000000009
20
42.900000000000006
10
-231.00000000000009
20
28.900000000000006
0
LWPOLYLINE
5
110
100
AcDbEntity
8
0
100
AcDbPolyline
90
4
70
1
43
0.0
10
-197.95000000000005
20
67.000000000000014
10
-197.95000000000005
20
81.000000000000014
10
-211.95000000000007
20
81.000000000000014
10
-211.95000000000007
20
67.000000000000014
0
LWPOLYLINE
5
111
100
AcDbEntity
8
0
100
AcDbPolyline
90
4
70
1
43
0.0
10
-197.95000000000005
20
28.900000000000006
10
-197.95000000000005
20
42.900000000000006
10
-211.95000000000007
20
42.900000000000006
10
-211.95000000000007
20
28.900000000000006
0
LWPOLYLINE
5
112
100
AcDbEntity
8
0
100
AcDbPolyline
90
4
70
1
43
0.0
10
-178.90000000000009
20
47.95000000000001
10
-178.90000000000009
20
61.95000000000001
10
-192.90000000000006
20
61.95000000000001
10
-192.90000000000006
20
47.95000000000001
0
LWPOLYLINE
5
113
100
AcDbEntity
8
0
100
AcDbPolyline
90
4
70
1
43
0.0
10
-159.85000000000005
20
67.000000000000014
10
-159.85000000000005
20
81.000000000000014
10
-173.85000000000005
20
81.000000000000014
10
-173.85000000000005
20
67.000000000000014
0
LWPOLYLINE
5
114
100
AcDbEntity
8
0
100
AcDbPolyline
90
4
70
1
43
0.0
10
-121.75000000000004
20
67.000000000000014
10
-121.75000000000004
20
81.000000000000014
10
-135.75000000000006
20
81.000000000000014
10
-135.75000000000006
20
67.000000000000014
0
LWPOLYLINE
5
115
100
AcDbEntity
8
0
100
AcDbPolyline
90
4
70
1
43
0.0
10
-178.90000000000009
20
28.900000000000006
10
-178.90000000000009
20
42.900000000000006
10
-192.90000000000006
20
42.900000000000006
10
-192.90000000000006
20
28.900000000000006
0
LWPOLYLINE
5
116
100
AcDbEntity
8
0
100
AcDbPolyline
90
4
70
1
43
0.0
10
-178.90000000000009
20
9.8500000000000032
10
-178.90000000000009
20
23.850000000000009
10
-192.90000000000006
20
23.850000000000009
10
-192.90000000000006
20
9.8500000000000032
0
LWPOLYLINE
5
117
100
AcDbEntity
8
0
100
AcDbPolyline
90
4
70
1
43
0.0
10
-178.90000000000009
20
67.000000000000014
10
-178.90000000000009
20
81.000000000000014
10
-192.90000000000006
20
81.000000000000014
10
-192.90000000000006
20
67.000000000000014
0
LWPOLYLINE
5
118
100
AcDbEntity
8
0
100
AcDbPolyline
90
4
70
1
43
0.0
10
-121.75000000000004
20
47.95000000000001
10
-121.75000000000004
20
61.95000000000001
10
-135.75000000000006
20
61.95000000000001
10
-135.75000000000006
20
47.95000000000001
0
LWPOLYLINE
5
119
100
AcDbEntity
8
0
100
AcDbPolyline
90
4
70
1
43
0.0
10
-140.80000000000004
20
9.8500000000000032
10
-140.80000000000004
20
23.850000000000009
10
-154.80000000000004
20
23.850000000000009
10
-154.80000000000004
20
9.8500000000000032
0
LWPOLYLINE
5
120
100
AcDbEntity
8
0
100
AcDbPolyline
90
4
70
1
43
0.0
10
-217.00000000000006
20
67.000000000000014
10
-217.00000000000006
20
81.000000000000014
10
-231.00000000000009
20
81.000000000000014
10
-231.00000000000009
20
67.000000000000014
0
LWPOLYLINE
5
121
100
AcDbEntity
8
0
100
AcDbPolyline
90
4
70
1
43
0.0
10
-121.75000000000004
20
28.900000000000006
10
-121.75000000000004
20
42.900000000000006
10
-135.75000000000006
20
42.900000000000006
10
-135.75000000000006
20
28.900000000000006
0
LWPOLYLINE
5
122
100
AcDbEntity
8
0
100
AcDbPolyline
90
4
70
1
43
0.0
10
-159.85000000000005
20
9.8500000000000032
10
-159.85000000000005
20
23.850000000000009
10
-173.85000000000005
20
23.850000000000009
10
-173.85000000000005
20
9.8500000000000032
0
LWPOLYLINE
5
123
100
AcDbEntity
8
0
100
AcDbPolyline
90
4
70
1
43
0.0
10
-197.95000000000005
20
47.95000000000001
10
-197.95000000000005
20
61.95000000000001
10
-211.95000000000007
20
61.95000000000001
10
-211.95000000000007
20
47.95000000000001
0
LWPOLYLINE
5
124
100
AcDbEntity
8
0
100
AcDbPolyline
90
4
70
1
43
0.0
10
-217.00000000000006
20
47.95000000000001
10
-217.00000000000006
20
61.95000000000001
10
-231.00000000000009
20
61.95000000000001
10
-231.00000000000009
20
47.95000000000001
0
LWPOLYLINE
5
125
100
AcDbEntity
8
0
100
AcDbPolyline
90
4
70
1
43
0.0
10
-217.00000000000006
20
9.8500000000000032
10
-217.00000000000006
20
23.850000000000009
10
-231.00000000000009
20
23.850000000000009
10
-231.00000000000009
20
9.8500000000000032
0
LWPOLYLINE
5
126
100
AcDbEntity
8
0
100
AcDbPolyline
90
4
70
1
43
0.0
10
-159.85000000000005
20
28.900000000000006
10
-159.85000000000005
20
42.900000000000006
10
-173.85000000000005
20
42.900000000000006
10
-173.85000000000005
20
28.900000000000006
0
LWPOLYLINE
5
127
100
AcDbEntity
8
0
100
AcDbPolyline
90
4
70
1
43
0.0
10
-135.75000000000006
20
23.850000000000009
10
-135.75000000000006
20
9.8500000000000032
10
-121.75000000000004
20
9.8500000000000032
10
-121.75000000000004
20
23.850000000000009
0
LWPOLYLINE
5
128
100
AcDbEntity
8
0
100
AcDbPolyline
90
4
70
1
43
0.0
10
-197.95000000000005
20
9.8500000000000032
10
-197.95000000000005
20
23.850000000000009
10
-211.95000000000007
20
23.850000000000009
10
-211.95000000000007
20
9.8500000000000032
0
LWPOLYLINE
5
129
100
AcDbEntity
8
0
100
AcDbPolyline
90
4
70
1
43
0.0
10
-159.85000000000005
20
47.95000000000001
10
-159.85000000000005
20
61.95000000000001
10
-173.85000000000005
20
61.95000000000001
10
-173.85000000000005
20
47.95000000000001
0
LWPOLYLINE
5
130
100
AcDbEntity
8
0
100
AcDbPolyline
90
8
70
1
43
0.0
10
-231.50000000000009
20
-2.4999999999999911
42
-0.41421356237309509
10
-236.00000000000006
20
1.9999999999999662
10
-236
20
79.999999999999972
42
-0.41421356237309853
10
-231.50000000000006
20
84.5
10
-121.25000000000003
20
84.500000000000014
42
-0.41421356237309337
10
-116.75000000000003
20
79.999999999999986
10
-116.75000000000004
20
2.0000000298023237
42
-0.41421356237309503
10
-121.25000002980237
20
-2.5000000000000027
0
ENDSEC
0
SECTION
2
OBJECTS
0
DICTIONARY
5
C
100
AcDbDictionary
3
ACAD_GROUP
350
D
3
ACAD_MLINESTYLE
350
17
0
DICTIONARY
5
D
100
AcDbDictionary
0
DICTIONARY
5
1A
330
C
100
AcDbDictionary
0
DICTIONARY
5
17
100
AcDbDictionary
0
ENDSEC
0
EOF
